ISO-10303-21;
HEADER;
FILE_DESCRIPTION (( 'STEP AP203' ),
    '1' );
FILE_NAME ('BK7-LPBSC-12.7-633.STEP',
    '2020-12-22T03:11:52',
    ( '' ),
    ( '' ),
    'SwSTEP 2.0',
    'SolidWorks 2020',
    '' );
FILE_SCHEMA (( 'CONFIG_CONTROL_DESIGN' ));
ENDSEC;

DATA;
#1 = AXIS2_PLACEMENT_3D ( 'NONE', #170, #139, #216 ) ;
#2 = ORIENTED_EDGE ( 'NONE', *, *, #252, .T. ) ;
#3 = FACE_OUTER_BOUND ( 'NONE', #104, .T. ) ;
#4 = CARTESIAN_POINT ( 'NONE',  ( -6.350000000000002309, 6.350000000000001421, 6.349999999999999645 ) ) ;
#5 = VECTOR ( 'NONE', #124, 1000.000000000000000 ) ;
#6 = VERTEX_POINT ( 'NONE', #84 ) ;
#7 = MANIFOLD_SOLID_BREP ( '¾µÏ', #277 ) ;
#8 = ORIENTED_EDGE ( 'NONE', *, *, #11, .F. ) ;
#9 = EDGE_CURVE ( 'NONE', #59, #39, #189, .T. ) ;
#10 = VERTEX_POINT ( 'NONE', #85 ) ;
#11 = EDGE_CURVE ( 'NONE', #283, #109, #192, .T. ) ;
#12 = COORDINATED_UNIVERSAL_TIME_OFFSET ( 8, 0, .AHEAD. ) ;
#13 = APPROVAL_PERSON_ORGANIZATION ( #317, #156, #300 ) ;
#14 = ORIENTED_EDGE ( 'NONE', *, *, #9, .T. ) ;
#15 = APPROVAL_ROLE ( '' ) ;
#16 = VECTOR ( 'NONE', #219, 1000.000000000000114 ) ;
#17 = DIRECTION ( 'NONE',  ( 0.000000000000000000, -0.000000000000000000, 1.000000000000000000 ) ) ;
#18 = DIRECTION ( 'NONE',  ( -2.903408047666378392E-16, -1.000000000000000000, 0.000000000000000000 ) ) ;
#19 = APPROVAL_PERSON_ORGANIZATION ( #162, #262, #15 ) ;
#20 = CARTESIAN_POINT ( 'NONE',  ( -6.349999999999998757, -6.349999999999997868, 6.349999999999999645 ) ) ;
#21 = DESIGN_CONTEXT ( 'detailed design', #179, 'design' ) ;
#22 = APPLICATION_PROTOCOL_DEFINITION ( 'international standard', 'config_control_design', 1994, #288 ) ;
#23 = FACE_OUTER_BOUND ( 'NONE', #81, .T. ) ;
#24 = DATE_AND_TIME ( #176, #194 ) ;
#25 = CARTESIAN_POINT ( 'NONE',  ( 0.000000000000000000, 0.000000000000000000, 6.349999999999999645 ) ) ;
#26 = VECTOR ( 'NONE', #61, 1000.000000000000000 ) ;
#27 = CARTESIAN_POINT ( 'NONE',  ( 6.349999999999998757, 6.349999999999998757, 6.349999999999999645 ) ) ;
#28 = DIRECTION ( 'NONE',  ( -0.000000000000000000, -0.000000000000000000, -1.000000000000000000 ) ) ;
#29 = FACE_OUTER_BOUND ( 'NONE', #256, .T. ) ;
#30 = CARTESIAN_POINT ( 'NONE',  ( -6.350000000000002309, 6.350000000000001421, -6.349999999999999645 ) ) ;
#31 = EDGE_LOOP ( 'NONE', ( #306, #33, #131 ) ) ;
#32 = ADVANCED_FACE ( 'NONE', ( #3 ), #112, .F. ) ;
#33 = ORIENTED_EDGE ( 'NONE', *, *, #55, .T. ) ;
#34 = DATE_AND_TIME ( #43, #207 ) ;
#35 = VECTOR ( 'NONE', #308, 999.9999999999998863 ) ;
#36 = ORIENTED_EDGE ( 'NONE', *, *, #187, .T. ) ;
#37 = DATE_TIME_ROLE ( 'classification_date' ) ;
#38 = VECTOR ( 'NONE', #180, 1000.000000000000000 ) ;
#39 = VERTEX_POINT ( 'NONE', #116 ) ;
#40 = CC_DESIGN_DATE_AND_TIME_ASSIGNMENT ( #50, #265, ( #217 ) ) ;
#41 = CARTESIAN_POINT ( 'NONE',  ( 6.349999999999998757, 6.349999999999998757, -6.349999999999999645 ) ) ;
#42 = CARTESIAN_POINT ( 'NONE',  ( 6.349999999999996980, 6.349999999999996980, 6.349999999999999645 ) ) ;
#43 = CALENDAR_DATE ( 2020, 22, 12 ) ;
#44 = ADVANCED_FACE ( 'NONE', ( #49 ), #244, .F. ) ;
#45 = FACE_OUTER_BOUND ( 'NONE', #106, .T. ) ;
#46 = DIRECTION ( 'NONE',  ( 0.000000000000000000, 0.000000000000000000, 1.000000000000000000 ) ) ;
#47 = DIRECTION ( 'NONE',  ( 0.000000000000000000, 0.000000000000000000, 1.000000000000000000 ) ) ;
#48 =( LENGTH_UNIT ( ) NAMED_UNIT ( * ) SI_UNIT ( .MILLI., .METRE. ) );
#49 = FACE_OUTER_BOUND ( 'NONE', #214, .T. ) ;
#50 = DATE_AND_TIME ( #275, #181 ) ;
#51 = CARTESIAN_POINT ( 'NONE',  ( 6.349999999999996980, 6.349999999999996980, -6.349999999999999645 ) ) ;
#52 = AXIS2_PLACEMENT_3D ( 'NONE', #247, #18, #228 ) ;
#53 = PLANE ( 'NONE',  #188 ) ;
#54 = ORIENTED_EDGE ( 'NONE', *, *, #252, .F. ) ;
#55 = EDGE_CURVE ( 'NONE', #235, #185, #175, .T. ) ;
#56 = LINE ( 'NONE', #230, #240 ) ;
#57 = DIRECTION ( 'NONE',  ( 0.000000000000000000, 0.000000000000000000, -1.000000000000000000 ) ) ;
#58 = VECTOR ( 'NONE', #99, 1000.000000000000000 ) ;
#59 = VERTEX_POINT ( 'NONE', #42 ) ;
#60 = ORIENTED_EDGE ( 'NONE', *, *, #145, .F. ) ;
#61 = DIRECTION ( 'NONE',  ( -6.829619984160658046E-17, 1.000000000000000000, -0.000000000000000000 ) ) ;
#62 = COORDINATED_UNIVERSAL_TIME_OFFSET ( 8, 0, .AHEAD. ) ;
#63 = ORIENTED_EDGE ( 'NONE', *, *, #160, .F. ) ;
#64 = CC_DESIGN_PERSON_AND_ORGANIZATION_ASSIGNMENT ( #94, #147, ( #239 ) ) ;
#65 = DIRECTION ( 'NONE',  ( -6.829619984160658046E-17, 1.000000000000000000, -0.000000000000000000 ) ) ;
#66 = VECTOR ( 'NONE', #57, 1000.000000000000000 ) ;
#67 = APPROVAL_DATE_TIME ( #34, #262 ) ;
#68 = PLANE ( 'NONE',  #52 ) ;
#69 = PERSON_AND_ORGANIZATION_ROLE ( 'design_supplier' ) ;
#70 = CARTESIAN_POINT ( 'NONE',  ( -6.349999999999999645, -6.350000000000000533, -6.349999999999999645 ) ) ;
#71 = VECTOR ( 'NONE', #74, 1000.000000000000000 ) ;
#72 = FACE_OUTER_BOUND ( 'NONE', #31, .T. ) ;
#73 = COORDINATED_UNIVERSAL_TIME_OFFSET ( 8, 0, .AHEAD. ) ;
#74 = DIRECTION ( 'NONE',  ( -0.000000000000000000, -0.000000000000000000, -1.000000000000000000 ) ) ;
#75 = COORDINATED_UNIVERSAL_TIME_OFFSET ( 8, 0, .AHEAD. ) ;
#76 = DIRECTION ( 'NONE',  ( -0.000000000000000000, 0.000000000000000000, 1.000000000000000000 ) ) ;
#77 =( NAMED_UNIT ( * ) PLANE_ANGLE_UNIT ( ) SI_UNIT ( $, .RADIAN. ) );
#78 = LINE ( 'NONE', #4, #66 ) ;
#79 = ADVANCED_FACE ( 'NONE', ( #222 ), #98, .T. ) ;
#80 = CARTESIAN_POINT ( 'NONE',  ( 6.349999999999996980, 6.349999999999996980, -6.349999999999999645 ) ) ;
#81 = EDGE_LOOP ( 'NONE', ( #260, #237, #54, #36 ) ) ;
#82 = DIRECTION ( 'NONE',  ( -2.220446049250312588E-16, 1.000000000000000000, 0.000000000000000000 ) ) ;
#83 = AXIS2_PLACEMENT_3D ( 'NONE', #316, #169, #17 ) ;
#84 = CARTESIAN_POINT ( 'NONE',  ( 6.349999999999998757, 6.349999999999998757, -6.349999999999999645 ) ) ;
#85 = CARTESIAN_POINT ( 'NONE',  ( 6.349999999999999645, -6.350000000000000533, -6.349999999999999645 ) ) ;
#86 = VERTEX_POINT ( 'NONE', #115 ) ;
#87 = AXIS2_PLACEMENT_3D ( 'NONE', #172, #296, #270 ) ;
#88 = ADVANCED_FACE ( 'NONE', ( #72 ), #148, .F. ) ;
#89 = LINE ( 'NONE', #196, #58 ) ;
#90 = ADVANCED_FACE ( 'NONE', ( #165 ), #68, .F. ) ;
#91 = FACE_OUTER_BOUND ( 'NONE', #186, .T. ) ;
#92 = CARTESIAN_POINT ( 'NONE',  ( 0.000000000000000000, 0.000000000000000000, 0.000000000000000000 ) ) ;
#93 = CARTESIAN_POINT ( 'NONE',  ( 0.000000000000000000, 0.000000000000000000, -6.349999999999999645 ) ) ;
#94 = PERSON_AND_ORGANIZATION ( #242, #151 ) ;
#95 = CARTESIAN_POINT ( 'NONE',  ( 6.349999999999996980, 6.349999999999996980, -6.349999999999999645 ) ) ;
#96 = PERSON_AND_ORGANIZATION_ROLE ( 'creator' ) ;
#97 = CC_DESIGN_PERSON_AND_ORGANIZATION_ASSIGNMENT ( #319, #96, ( #217 ) ) ;
#98 = PLANE ( 'NONE',  #220 ) ;
#99 = DIRECTION ( 'NONE',  ( 0.000000000000000000, 0.000000000000000000, -1.000000000000000000 ) ) ;
#100 = EDGE_CURVE ( 'NONE', #136, #10, #246, .T. ) ;
#101 = LINE ( 'NONE', #80, #107 ) ;
#102 = ORIENTED_EDGE ( 'NONE', *, *, #269, .T. ) ;
#103 = LINE ( 'NONE', #27, #263 ) ;
#104 = EDGE_LOOP ( 'NONE', ( #213, #254, #290, #153 ) ) ;
#105 = ORIENTED_EDGE ( 'NONE', *, *, #271, .T. ) ;
#106 = EDGE_LOOP ( 'NONE', ( #183, #305, #129, #133 ) ) ;
#107 = VECTOR ( 'NONE', #280, 1000.000000000000000 ) ;
#108 = LOCAL_TIME ( 11, 11, 52.00000000000000000, #62 ) ;
#109 = VERTEX_POINT ( 'NONE', #205 ) ;
#110 = ADVANCED_FACE ( 'NONE', ( #23 ), #318, .F. ) ;
#111 = VECTOR ( 'NONE', #65, 1000.000000000000000 ) ;
#112 = PLANE ( 'NONE',  #1 ) ;
#113 = UNCERTAINTY_MEASURE_WITH_UNIT (LENGTH_MEASURE( 1.000000000000000082E-05 ), #48, 'distance_accuracy_value', 'NONE');
#114 = CC_DESIGN_PERSON_AND_ORGANIZATION_ASSIGNMENT ( #171, #238, ( #161 ) ) ;
#115 = CARTESIAN_POINT ( 'NONE',  ( -6.349999999999999645, -6.350000000000000533, 6.349999999999999645 ) ) ;
#116 = CARTESIAN_POINT ( 'NONE',  ( -6.349999999999998757, -6.349999999999997868, 6.349999999999999645 ) ) ;
#117 =( GEOMETRIC_REPRESENTATION_CONTEXT ( 3 ) GLOBAL_UNCERTAINTY_ASSIGNED_CONTEXT ( ( #113 ) ) GLOBAL_UNIT_ASSIGNED_CONTEXT ( ( #48, #77, #200 ) ) REPRESENTATION_CONTEXT ( 'NONE', 'WORKASPACE' ) );
#118 = ADVANCED_FACE ( 'NONE', ( #91 ), #198, .F. ) ;
#119 = CARTESIAN_POINT ( 'NONE',  ( -6.349999999999999645, -6.350000000000000533, -6.349999999999999645 ) ) ;
#120 = PLANE ( 'NONE',  #215 ) ;
#121 = APPROVAL_STATUS ( 'not_yet_approved' ) ;
#122 = DIRECTION ( 'NONE',  ( -2.220446049250312588E-16, 1.000000000000000000, 0.000000000000000000 ) ) ;
#123 = VECTOR ( 'NONE', #126, 1000.000000000000000 ) ;
#124 = DIRECTION ( 'NONE',  ( -2.220446049250312588E-16, 1.000000000000000000, 0.000000000000000000 ) ) ;
#125 = DIRECTION ( 'NONE',  ( -0.7071067811865474617, -0.7071067811865474617, 0.000000000000000000 ) ) ;
#126 = DIRECTION ( 'NONE',  ( 1.000000000000000000, 0.000000000000000000, 0.000000000000000000 ) ) ;
#127 = CARTESIAN_POINT ( 'NONE',  ( 6.349999999999999645, -6.350000000000000533, 6.349999999999999645 ) ) ;
#128 = ADVANCED_FACE ( 'NONE', ( #45 ), #120, .F. ) ;
#129 = ORIENTED_EDGE ( 'NONE', *, *, #313, .T. ) ;
#130 = VERTEX_POINT ( 'NONE', #95 ) ;
#131 = ORIENTED_EDGE ( 'NONE', *, *, #279, .T. ) ;
#132 = VECTOR ( 'NONE', #122, 1000.000000000000000 ) ;
#133 = ORIENTED_EDGE ( 'NONE', *, *, #257, .T. ) ;
#134 = PERSON_AND_ORGANIZATION ( #242, #151 ) ;
#135 = VECTOR ( 'NONE', #249, 999.9999999999998863 ) ;
#136 = VERTEX_POINT ( 'NONE', #119 ) ;
#137 = DATE_AND_TIME ( #191, #299 ) ;
#138 = PRODUCT_DEFINITION_SHAPE ( 'NONE', 'NONE',  #217 ) ;
#139 = DIRECTION ( 'NONE',  ( 0.7071067811865475727, -0.7071067811865475727, 0.000000000000000000 ) ) ;
#140 = CC_DESIGN_PERSON_AND_ORGANIZATION_ASSIGNMENT ( #134, #69, ( #161 ) ) ;
#141 = LINE ( 'NONE', #41, #16 ) ;
#142 = PERSON_AND_ORGANIZATION ( #242, #151 ) ;
#143 = CC_DESIGN_PERSON_AND_ORGANIZATION_ASSIGNMENT ( #142, #310, ( #190 ) ) ;
#144 = DIRECTION ( 'NONE',  ( -2.220446049250312588E-16, 1.000000000000000000, 0.000000000000000000 ) ) ;
#145 = EDGE_CURVE ( 'NONE', #109, #6, #202, .T. ) ;
#146 = DIRECTION ( 'NONE',  ( 1.000000000000000000, 0.000000000000000000, 0.000000000000000000 ) ) ;
#147 = PERSON_AND_ORGANIZATION_ROLE ( 'design_owner' ) ;
#148 = PLANE ( 'NONE',  #291 ) ;
#149 = LINE ( 'NONE', #320, #111 ) ;
#150 = CARTESIAN_POINT ( 'NONE',  ( 0.000000000000000000, 0.000000000000000000, 6.349999999999999645 ) ) ;
#151 = ORGANIZATION ( 'UNSPECIFIED', 'UNSPECIFIED', '' ) ;
#152 = FACE_OUTER_BOUND ( 'NONE', #264, .T. ) ;
#153 = ORIENTED_EDGE ( 'NONE', *, *, #145, .T. ) ;
#154 = LINE ( 'NONE', #251, #38 ) ;
#155 = VERTEX_POINT ( 'NONE', #248 ) ;
#156 = APPROVAL ( #121, 'UNSPECIFIED' ) ;
#157 = ORIENTED_EDGE ( 'NONE', *, *, #313, .F. ) ;
#158 = ORIENTED_EDGE ( 'NONE', *, *, #173, .F. ) ;
#159 = ORIENTED_EDGE ( 'NONE', *, *, #173, .T. ) ;
#160 = EDGE_CURVE ( 'NONE', #10, #6, #149, .T. ) ;
#161 = PRODUCT_DEFINITION_FORMATION_WITH_SPECIFIED_SOURCE ( 'ANY', '', #239, .NOT_KNOWN. ) ;
#162 = PERSON_AND_ORGANIZATION ( #242, #151 ) ;
#163 = CC_DESIGN_APPROVAL ( #262, ( #161 ) ) ;
#164 = APPROVAL_PERSON_ORGANIZATION ( #195, #174, #193 ) ;
#165 = FACE_OUTER_BOUND ( 'NONE', #231, .T. ) ;
#166 = CC_DESIGN_SECURITY_CLASSIFICATION ( #190, ( #161 ) ) ;
#167 = EDGE_CURVE ( 'NONE', #6, #136, #141, .T. ) ;
#168 = APPROVAL_STATUS ( 'not_yet_approved' ) ;
#169 = DIRECTION ( 'NONE',  ( 0.000000000000000000, 1.000000000000000000, 0.000000000000000000 ) ) ;
#170 = CARTESIAN_POINT ( 'NONE',  ( 6.349999999999998757, 6.349999999999998757, 6.349999999999999645 ) ) ;
#171 = PERSON_AND_ORGANIZATION ( #242, #151 ) ;
#172 = CARTESIAN_POINT ( 'NONE',  ( 6.349999999999998757, 6.349999999999998757, 6.349999999999999645 ) ) ;
#173 = EDGE_CURVE ( 'NONE', #59, #130, #89, .T. ) ;
#174 = APPROVAL ( #168, 'UNSPECIFIED' ) ;
#175 = LINE ( 'NONE', #227, #132 ) ;
#176 = CALENDAR_DATE ( 2020, 22, 12 ) ;
#177 = DIRECTION ( 'NONE',  ( -0.000000000000000000, 0.000000000000000000, 1.000000000000000000 ) ) ;
#178 = LINE ( 'NONE', #276, #5 ) ;
#179 = APPLICATION_CONTEXT ( 'configuration controlled 3d designs of mechanical parts and assemblies' ) ;
#180 = DIRECTION ( 'NONE',  ( 0.000000000000000000, 0.000000000000000000, -1.000000000000000000 ) ) ;
#181 = LOCAL_TIME ( 11, 11, 52.00000000000000000, #75 ) ;
#182 = LINE ( 'NONE', #51, #135 ) ;
#183 = ORIENTED_EDGE ( 'NONE', *, *, #55, .F. ) ;
#184 = LINE ( 'NONE', #282, #123 ) ;
#185 = VERTEX_POINT ( 'NONE', #30 ) ;
#186 = EDGE_LOOP ( 'NONE', ( #211, #60, #8, #233 ) ) ;
#187 = EDGE_CURVE ( 'NONE', #86, #136, #56, .T. ) ;
#188 = AXIS2_PLACEMENT_3D ( 'NONE', #150, #232, #82 ) ;
#189 = LINE ( 'NONE', #236, #35 ) ;
#190 = SECURITY_CLASSIFICATION ( '', '', #294 ) ;
#191 = CALENDAR_DATE ( 2020, 22, 12 ) ;
#192 = LINE ( 'NONE', #289, #26 ) ;
#193 = APPROVAL_ROLE ( '' ) ;
#194 = LOCAL_TIME ( 11, 11, 52.00000000000000000, #73 ) ;
#195 = PERSON_AND_ORGANIZATION ( #242, #151 ) ;
#196 = CARTESIAN_POINT ( 'NONE',  ( 6.349999999999996980, 6.349999999999996980, 6.349999999999999645 ) ) ;
#197 = SHAPE_DEFINITION_REPRESENTATION ( #138, #245 ) ;
#198 = PLANE ( 'NONE',  #87 ) ;
#199 = ADVANCED_FACE ( 'NONE', ( #29 ), #53, .T. ) ;
#200 =( NAMED_UNIT ( * ) SI_UNIT ( $, .STERADIAN. ) SOLID_ANGLE_UNIT ( ) );
#201 = AXIS2_PLACEMENT_3D ( 'NONE', #224, #268, #293 ) ;
#202 = LINE ( 'NONE', #298, #71 ) ;
#203 = VECTOR ( 'NONE', #272, 1000.000000000000000 ) ;
#204 = LINE ( 'NONE', #301, #203 ) ;
#205 = CARTESIAN_POINT ( 'NONE',  ( 6.349999999999998757, 6.349999999999998757, 6.349999999999999645 ) ) ;
#206 = LINE ( 'NONE', #303, #261 ) ;
#207 = LOCAL_TIME ( 11, 11, 52.00000000000000000, #259 ) ;
#208 = ORIENTED_EDGE ( 'NONE', *, *, #279, .F. ) ;
#209 = ORIENTED_EDGE ( 'NONE', *, *, #286, .T. ) ;
#210 = DIRECTION ( 'NONE',  ( 1.000000000000000000, -2.903408047666378392E-16, 0.000000000000000000 ) ) ;
#211 = ORIENTED_EDGE ( 'NONE', *, *, #160, .T. ) ;
#212 = ORIENTED_EDGE ( 'NONE', *, *, #9, .F. ) ;
#213 = ORIENTED_EDGE ( 'NONE', *, *, #167, .T. ) ;
#214 = EDGE_LOOP ( 'NONE', ( #304, #158, #14, #102 ) ) ;
#215 = AXIS2_PLACEMENT_3D ( 'NONE', #20, #266, #47 ) ;
#216 = DIRECTION ( 'NONE',  ( 0.7071067811865474617, 0.7071067811865474617, 0.000000000000000000 ) ) ;
#217 = PRODUCT_DEFINITION ( 'UNKNOWN', '', #161, #21 ) ;
#218 = EDGE_CURVE ( 'NONE', #130, #235, #182, .T. ) ;
#219 = DIRECTION ( 'NONE',  ( -0.7071067811865474617, -0.7071067811865474617, 0.000000000000000000 ) ) ;
#220 = AXIS2_PLACEMENT_3D ( 'NONE', #25, #177, #146 ) ;
#221 = APPROVAL_STATUS ( 'not_yet_approved' ) ;
#222 = FACE_OUTER_BOUND ( 'NONE', #284, .T. ) ;
#223 = MECHANICAL_CONTEXT ( 'NONE', #288, 'mechanical' ) ;
#224 = CARTESIAN_POINT ( 'NONE',  ( 6.349999999999996980, 6.349999999999996980, 6.349999999999999645 ) ) ;
#225 = APPLICATION_PROTOCOL_DEFINITION ( 'international standard', 'config_control_design', 1994, #179 ) ;
#226 = MANIFOLD_SOLID_BREP ( 'Í¹Ì¨-À', #297 ) ;
#227 = CARTESIAN_POINT ( 'NONE',  ( -6.349999999999998757, -6.349999999999997868, -6.349999999999999645 ) ) ;
#228 = DIRECTION ( 'NONE',  ( -1.000000000000000000, 2.903408047666378392E-16, 0.000000000000000000 ) ) ;
#229 = DIRECTION ( 'NONE',  ( 1.000000000000000000, 0.000000000000000000, 0.000000000000000000 ) ) ;
#230 = CARTESIAN_POINT ( 'NONE',  ( -6.349999999999999645, -6.350000000000000533, 6.349999999999999645 ) ) ;
#231 = EDGE_LOOP ( 'NONE', ( #208, #309, #209, #159 ) ) ;
#232 = DIRECTION ( 'NONE',  ( 0.000000000000000000, 0.000000000000000000, 1.000000000000000000 ) ) ;
#233 = ORIENTED_EDGE ( 'NONE', *, *, #321, .T. ) ;
#234 = PLANE ( 'NONE',  #250 ) ;
#235 = VERTEX_POINT ( 'NONE', #302 ) ;
#236 = CARTESIAN_POINT ( 'NONE',  ( 6.349999999999996980, 6.349999999999996980, 6.349999999999999645 ) ) ;
#237 = ORIENTED_EDGE ( 'NONE', *, *, #321, .F. ) ;
#238 = PERSON_AND_ORGANIZATION_ROLE ( 'creator' ) ;
#239 = PRODUCT ( 'BK7-LPBSC-12.7-633', 'BK7-LPBSC-12.7-633', '', ( #223 ) ) ;
#240 = VECTOR ( 'NONE', #28, 1000.000000000000000 ) ;
#241 = CC_DESIGN_APPROVAL ( #174, ( #190 ) ) ;
#242 = PERSON ( 'UNSPECIFIED', 'UNSPECIFIED', 'UNSPECIFIED', ('UNSPECIFIED'), ('UNSPECIFIED'), ('UNSPECIFIED') ) ;
#243 = DIRECTION ( 'NONE',  ( 1.000000000000000000, 0.000000000000000000, 0.000000000000000000 ) ) ;
#244 = PLANE ( 'NONE',  #201 ) ;
#245 = ADVANCED_BREP_SHAPE_REPRESENTATION ( 'BK7-LPBSC-12.7-633', ( #226, #7, #292 ), #117 ) ;
#246 = LINE ( 'NONE', #70, #278 ) ;
#247 = CARTESIAN_POINT ( 'NONE',  ( 6.349999999999996980, 6.349999999999996980, 6.349999999999999645 ) ) ;
#248 = CARTESIAN_POINT ( 'NONE',  ( -6.350000000000002309, 6.350000000000001421, 6.349999999999999645 ) ) ;
#249 = DIRECTION ( 'NONE',  ( -0.7071067811865475727, -0.7071067811865475727, 0.000000000000000000 ) ) ;
#250 = AXIS2_PLACEMENT_3D ( 'NONE', #253, #76, #229 ) ;
#251 = CARTESIAN_POINT ( 'NONE',  ( -6.349999999999998757, -6.349999999999997868, 6.349999999999999645 ) ) ;
#252 = EDGE_CURVE ( 'NONE', #86, #283, #184, .T. ) ;
#253 = CARTESIAN_POINT ( 'NONE',  ( 0.000000000000000000, 0.000000000000000000, -6.349999999999999645 ) ) ;
#254 = ORIENTED_EDGE ( 'NONE', *, *, #187, .F. ) ;
#255 = ORIENTED_EDGE ( 'NONE', *, *, #11, .T. ) ;
#256 = EDGE_LOOP ( 'NONE', ( #212, #281, #157 ) ) ;
#257 = EDGE_CURVE ( 'NONE', #155, #185, #78, .T. ) ;
#258 = ORIENTED_EDGE ( 'NONE', *, *, #100, .F. ) ;
#259 = COORDINATED_UNIVERSAL_TIME_OFFSET ( 8, 0, .AHEAD. ) ;
#260 = ORIENTED_EDGE ( 'NONE', *, *, #100, .T. ) ;
#261 = VECTOR ( 'NONE', #210, 1000.000000000000000 ) ;
#262 = APPROVAL ( #221, 'UNSPECIFIED' ) ;
#263 = VECTOR ( 'NONE', #125, 1000.000000000000114 ) ;
#264 = EDGE_LOOP ( 'NONE', ( #285, #63, #258 ) ) ;
#265 = DATE_TIME_ROLE ( 'creation_date' ) ;
#266 = DIRECTION ( 'NONE',  ( 1.000000000000000000, -2.220446049250312588E-16, 0.000000000000000000 ) ) ;
#267 = DATE_AND_TIME ( #314, #108 ) ;
#268 = DIRECTION ( 'NONE',  ( -0.7071067811865475727, 0.7071067811865475727, 0.000000000000000000 ) ) ;
#269 = EDGE_CURVE ( 'NONE', #39, #235, #154, .T. ) ;
#270 = DIRECTION ( 'NONE',  ( 6.829619984160658046E-17, -1.000000000000000000, 0.000000000000000000 ) ) ;
#271 = EDGE_CURVE ( 'NONE', #109, #86, #103, .T. ) ;
#272 = DIRECTION ( 'NONE',  ( -0.000000000000000000, -0.000000000000000000, -1.000000000000000000 ) ) ;
#273 = DIRECTION ( 'NONE',  ( 0.000000000000000000, 0.000000000000000000, 1.000000000000000000 ) ) ;
#274 = APPROVAL_DATE_TIME ( #24, #156 ) ;
#275 = CALENDAR_DATE ( 2020, 22, 12 ) ;
#276 = CARTESIAN_POINT ( 'NONE',  ( -6.349999999999998757, -6.349999999999997868, 6.349999999999999645 ) ) ;
#277 = CLOSED_SHELL ( 'NONE', ( #44, #128, #90, #199, #88 ) ) ;
#278 = VECTOR ( 'NONE', #243, 1000.000000000000000 ) ;
#279 = EDGE_CURVE ( 'NONE', #185, #130, #101, .T. ) ;
#280 = DIRECTION ( 'NONE',  ( 1.000000000000000000, -2.903408047666378392E-16, 0.000000000000000000 ) ) ;
#281 = ORIENTED_EDGE ( 'NONE', *, *, #286, .F. ) ;
#282 = CARTESIAN_POINT ( 'NONE',  ( -6.349999999999999645, -6.350000000000000533, 6.349999999999999645 ) ) ;
#283 = VERTEX_POINT ( 'NONE', #127 ) ;
#284 = EDGE_LOOP ( 'NONE', ( #105, #2, #255 ) ) ;
#285 = ORIENTED_EDGE ( 'NONE', *, *, #167, .F. ) ;
#286 = EDGE_CURVE ( 'NONE', #155, #59, #206, .T. ) ;
#287 = APPROVAL_DATE_TIME ( #267, #174 ) ;
#288 = APPLICATION_CONTEXT ( 'configuration controlled 3d designs of mechanical parts and assemblies' ) ;
#289 = CARTESIAN_POINT ( 'NONE',  ( 6.349999999999998757, 6.349999999999998757, 6.349999999999999645 ) ) ;
#290 = ORIENTED_EDGE ( 'NONE', *, *, #271, .F. ) ;
#291 = AXIS2_PLACEMENT_3D ( 'NONE', #93, #273, #144 ) ;
#292 = AXIS2_PLACEMENT_3D ( 'NONE', #92, #46, #295 ) ;
#293 = DIRECTION ( 'NONE',  ( 0.7071067811865475727, 0.7071067811865475727, 0.000000000000000000 ) ) ;
#294 = SECURITY_CLASSIFICATION_LEVEL ( 'unclassified' ) ;
#295 = DIRECTION ( 'NONE',  ( 1.000000000000000000, 0.000000000000000000, 0.000000000000000000 ) ) ;
#296 = DIRECTION ( 'NONE',  ( -1.000000000000000000, -6.829619984160658046E-17, 0.000000000000000000 ) ) ;
#297 = CLOSED_SHELL ( 'NONE', ( #32, #110, #118, #79, #312 ) ) ;
#298 = CARTESIAN_POINT ( 'NONE',  ( 6.349999999999998757, 6.349999999999998757, 6.349999999999999645 ) ) ;
#299 = LOCAL_TIME ( 11, 11, 52.00000000000000000, #12 ) ;
#300 = APPROVAL_ROLE ( '' ) ;
#301 = CARTESIAN_POINT ( 'NONE',  ( 6.349999999999999645, -6.350000000000000533, 6.349999999999999645 ) ) ;
#302 = CARTESIAN_POINT ( 'NONE',  ( -6.349999999999998757, -6.349999999999997868, -6.349999999999999645 ) ) ;
#303 = CARTESIAN_POINT ( 'NONE',  ( 6.349999999999996980, 6.349999999999996980, 6.349999999999999645 ) ) ;
#304 = ORIENTED_EDGE ( 'NONE', *, *, #218, .F. ) ;
#305 = ORIENTED_EDGE ( 'NONE', *, *, #269, .F. ) ;
#306 = ORIENTED_EDGE ( 'NONE', *, *, #218, .T. ) ;
#307 = PRODUCT_RELATED_PRODUCT_CATEGORY ( 'detail', '', ( #239 ) ) ;
#308 = DIRECTION ( 'NONE',  ( -0.7071067811865475727, -0.7071067811865475727, 0.000000000000000000 ) ) ;
#309 = ORIENTED_EDGE ( 'NONE', *, *, #257, .F. ) ;
#310 = PERSON_AND_ORGANIZATION_ROLE ( 'classification_officer' ) ;
#311 = CC_DESIGN_DATE_AND_TIME_ASSIGNMENT ( #137, #37, ( #190 ) ) ;
#312 = ADVANCED_FACE ( 'NONE', ( #152 ), #234, .F. ) ;
#313 = EDGE_CURVE ( 'NONE', #39, #155, #178, .T. ) ;
#314 = CALENDAR_DATE ( 2020, 22, 12 ) ;
#315 = CC_DESIGN_APPROVAL ( #156, ( #217 ) ) ;
#316 = CARTESIAN_POINT ( 'NONE',  ( -6.349999999999999645, -6.350000000000000533, 6.349999999999999645 ) ) ;
#317 = PERSON_AND_ORGANIZATION ( #242, #151 ) ;
#318 = PLANE ( 'NONE',  #83 ) ;
#319 = PERSON_AND_ORGANIZATION ( #242, #151 ) ;
#320 = CARTESIAN_POINT ( 'NONE',  ( 6.349999999999998757, 6.349999999999998757, -6.349999999999999645 ) ) ;
#321 = EDGE_CURVE ( 'NONE', #283, #10, #204, .T. ) ;
ENDSEC;
END-ISO-10303-21;
